8. Lucky You

Band : Deftones
Song : LUCKY YOU
Album : Deftones (2003)

Tabbed by: beto_zwitter
Date: 12 / 15 / 04
Tunning: G# C# F# B E G# C#

Credits for the tunning: Cros (xcrossx1@yahoo.com)
This song really don't have guitar, but here are some that you can play 
trogh the song.
The tunning is the same for all the songs on "Deftones" album, so you don't 
need to re-tune your guitar.

Intro (listen carefully for this, is the part when the song starts, and when 
Chino starts singing, until the chorus.
C#-----------------------------------------------------------------
G#-----------------------------------------------------------------
E------------------------------------------------------------------
B------------------------------------------------------------------
F#-------4-------4---4-------4----4-----4--------------------------
C#---4-4---4-44-4-4-4---44-4---4-4---4-4---4-----------------------
G#-----------------------------------------------------------------

Chorus (And if you're feeling lucky...)
C#-----------------------------------------------------------------
G#-----------------------------------------------------------------
E------------------------------------------------------------------
B------------------------------------------------------------------
F#-----------------------------------------------------------------
C#-----------------------------------------------------------------
G#--8~-----4~-----8~-----4~-----8~-----4~-----8~-----4~-----3~~~---

Break 1 (if we could name this part of this way) (If you feel lucky/if you 
feel loved)
C#-----------------------------------------------------------------
G#-----------------------------------------------------------------
E------------------------------------------------------------------
B------------------------------------------------------------------
F#-----------------------------------------------------------------
C#-----------------------------------------------------------------
G#--3~--------3~----------3~----------3~-----------3~-----------3~-
you can let ring the note or make some pickings but care that the pick don't 
be heard.

Break 2 (You've cross the walls Excelled)
C#-----------------------------------------------------------------
G#-----------------------------------------------------------------
E------------------------------------------------------------------
B------------------------------------------------------------------
F#-----------------------------------------------------------------
C#-----------------------------------------------------------------
G#--3~---4~-------3~---4~---------3~---4~--------3~---5~-----------

Chorus 2 (Now spread your wings and sail...)
C#----------------------------------------------------------------------
G#----------------------------------------------------------------------
E-----------------------------------------------------------------------
B-----------------------------------------------------------------------
F#----------------------------------------------------------------------
C#----------------------------------------------------------------------
G#--8~--------4~----------8~----------4~-----------8~-----------4~---3--<<--Don't 
let ring this last note.

Quiet part (same as intro)
C#-----------------------------------------------------------------
G#-----------------------------------------------------------------
E------------------------------------------------------------------
B------------------------------------------------------------------
F#-------4-------4---4-------4----4-----4--------------------------
C#---4-4---4-44-4-4-4---44-4---4-4---4-4---4-----------------------
G#-----------------------------------------------------------------

Chorus (So if you're feeling lucky...)
C#-----------------------------------------------------------------
G#-----------------------------------------------------------------
E------------------------------------------------------------------
B------------------------------------------------------------------
F#-----------------------------------------------------------------
C#-----------------------------------------------------------------
G#--8~-----4~-----8~-----4~-----8~-----4~-----8~-----4~--------

Chorus (And if you're feeling lucky...
C#-----------------------------------------------------------------
G#-----------------------------------------------------------------
E------------------------------------------------------------------
B------------------------------------------------------------------
F#-----------------------------------------------------------------
C#-----------------------------------------------------------------
G#--8~-----4~-----8~-----4~-----8~-----4~-----8~-----4~-----8~--- 4~

Break 2 (You've cross the walls Excelled)
C#-----------------------------------------------------------------
G#-----------------------------------------------------------------
E------------------------------------------------------------------
B------------------------------------------------------------------
F#-----------------------------------------------------------------
C#-----------------------------------------------------------------
G#--3~---4~-------3~---4~---------3~---4~--------3~---5~-----------

C#------------------------------------------------------------------------------------
G#------------------------------------------------------------------------------------
E-------------------------------------------------------------------------------------
B-------------------------------------------------------------------------------------
F#------------------------------------------------------------------------------------
C#------------------------------------------------------------------------------------
G#-3~---4~---3~---4~---3~---4~---3~---4~---3~---4~---3~---4~---3~---4~---3~---4~---3-- 
dont let ring this last note.

Well, this is basically all the parts that i can tab. if it seems so much 
simple, try using 3 strings chords (eg. 3-5-5)
I hope you like it.

Comments to beto_zwitter@hotmail.com
Page 1 of 11