8. Knife Prty

 

BAND:  Deftones
ALBUM: White Pony
SONG:  KNIFE PARTY

Intro

D|-------------------------------------------------------------------|
A|-------------------------------------------------------------------|
F|---5---5-5-5-5-5---5-5-5-5-5---5-5-5---5-5-5-5-5---5-5-5-5-5---5-/-|
C|---3---3-3-3-3-3---3-3-3-3-3---3-3-3---3-3-3-3-3---3-3-3-3-3---3-/-|
G|---3---3-3-3-3-3---3-3-3-3-3---3-3-3---3-3-3-3-3---3-3-3-3-3---3-/-|
C|-------------------------------------------------------------------|

D|-------------------------------------------------------------------|
A|-------------------------------------------------------------------|
F|-------------------------------------------------------------------|
C|---9---9-9-9-9-9---9-9-9-9-9---9-9-10--101010109---9-9-9-9-9---9-\-|
G|---7---7-7-7-7-7---7-7-7-7-7---7-7-7---7-7-7-7-7---7-7-7-7-7---7-\-|
C|---7---7-7-7-7-7---7-7-7-7-7---7-7-7---7-7-7-7-7---7-7-7-7-7---7-\-|

Verse

D|-------------------------------------------------------------------|
A|---5--5--5--5--5---5--5--5--5--5-----------------------------------|
F|---5--5--5--5--5---5--5--5--5--5-----------------------------------|
C|---3--3--3--3--3---3--3--3--3--3-/-9--9--9--9--9---10-10-9--9--9---|
G|---3--3--3--3--3---3--3--3--3--3-/-7--7--7--7--7---7--7--7--7--7---|
C|---3--3--3--3--3---3--3--3--3--3-/-7--7--7--7--7---7--7--7--7--7---|

Background

D|-----------------------------------|
A|-----------------------------------|
F|-------------------10-10-9--9--9---|
C|---9--9--9--9--9---7--7--7--7--7---|
G|---7--7--7--7--7---7--7--7--7--7---|
C|---7--7--7--7--7---7--7--7--7--7---|

Chorus

D|-------------------------------------------------------------------|
A|-------------------------------------------------------------------|
F|-----------------------------------10-10-9--9--9-999--9--9--9--9---|
C|---8--8--8--8--8---8--8--8--8--8---x--x--x--x--x-xxx--x--x--x--x---|
G|---8--8--8--8--8---8--8--8--8--8---8--8--7--7--7-777-/8-\7--7--7---|
C|---8--8--8--8--8---8--8--8--8--8-----------------------------------|

D|-------------------------------------------------------------------|
A|-------------------------------------------------------------------|
F|-------------------------------------------------------------------|
C|---8--8--8--8--8---8--8--8--8--8---0-------------------------------|
G|---8--8--8--8--8---8--8--8--8--8---0-------------------------------|
C|---8--8--8--8--8---8--8--8--8--8---0-------------------------------|

Bridge

D|-----|--1--|
A|--1--|--3--|
F|--2--|--2--|
C|--2--|--3--|
G|--0--|--0--|
C|-----|--0--|

			###################################
			# http://planeta.clix.pt/deftones #            
			###################################
Page 1 of 11