5. Rickets

Guitar - Rickets
================
Tune (low to high): c#/g#/c#/f#/a#/d#
Credits to: Ralph Vanstreels (@)

Chorus
|-----------------------------|
|-----------------------------|
|-----------------------------|
|-3-2-0-3-2-0-3-0-6-6-6-1-1-1-|
|-3-2-0-3-2-0-3-0-6-6-6-1-1-1-|
|-3-2-0-3-2-0-3-0-6-6-6-1-1-1-|

Fill 1 (flanger and distortion heavy effectors)
|------------------------|
|------------------------|
|------------------------|
|------------------------|
|------------------------|
|-3p2p0-0-3p2p0-0-3-00---|

Fill 2 (palm mute)
This little thing is played only once, at 0:15.
|-----|
|-----|
|-----|
|-----|
|-0-0-|
|-0-0-|
  <pm>

Main-fill (flanger and distortion heavy effectors)
|----------------------------|
|----------------------------|
|----------------------------|
|----------------------------|
|----------------------------|
|-3p2p0-0-3p2p0-0-3-0-66666\-|

Verse (palm-mute)
|-----------------|
|-----------------|
|-----------------|
|-----------------|
|-2p0-0-2p0-00--0-|
|-2p0-0-2p0-00--0-|
  <<<<<<<pm>>>>>>

Main-fill, Chorus, Verse, Main-fill, Chorus

Breakdown
This breakdown has two guitars on the album version:
|---|------------------------------|-----------------|----------------------------------------|
|---|-7--------------7-------------|-7-7-7-7-7-7-7-7-|-7-7-7-7-7-7-7-7-7-7-7-7-7-7-///xxx//xx-|
|-0-|-7--------------7-------------|-7-7-7-7-7-7-7-7-|-7-7-7-7-7-7-7-7-7-7-7-7-7-7-///xxx//xx-|
|-0-|-7--------------7-------------|-7-7-7-7-7-7-7-7-|-7-7-7-7-7-7-7-7-7-7-7-7-7-7-///xxx//xx-|
|-0-|-5--------------5-------------|-5-5-5-5-5-5-5-5-|-5-5-5-5-5-5-5-5-5-5-5-5-5-5-///xxx//xx-|
|-0-|------------------------------|-----------------|----------------------------------------|

|---|------------------------------|-----------------|-----------------------0----------------|
|---|--------7---------------------|-----------------|-----------------------0----------------|
|-0-|----------8-6-----------------|-----------------|-----------------------0----------------|
|-0-|------------------------------|-----------------|-----------------------0----------------|
|-0-|------------------------------|-2p0-0-2p0-00--0-|-----------------------0----------------|
|-0-|------------------------------|-2p0-0-2p0-00--0-|-----------------------0----------------|
                                     <<<<<<<pm>>>>>>

Since deftones doesnt have two guitars when playing live, here's how to play it with only one guitar. Note: on the heavy part, with 2p0s, palm-mute only the two loudest strings.
|---|-2------2-------2-------------|-x-x-x-x-x-xx--x-|-2-2-2-2-2-2-2-2-2-2-2-0-2-2-///xxx//xx-|
|---|-3--------4-2---3-------------|-3-3-3-3-3-33--3-|-3-3-3-3-3-3-3-3-3-3-3-0-3-3-///xxx//xx-|
|-0-|-2--------------2-------------|-2-2-2-2-2-22--2-|-2-2-2-2-2-2-2-2-2-2-2-0-2-2-///xxx//xx-|
|-0-|-0--------------0-------------|-x-x-x-x-x-xx--x-|-0-0-0-0-0-0-0-0-0-0-0-0-0-0-///xxx//xx-|
|-0-|------------------------------|-2p0-0-2p0-00--0-|-----------------------0----------------|
|-0-|------------------------------|-2p0-0-2p0-00--0-|-----------------------0----------------|
                                     <<<<<<<pm>>>>>>

Chorus
Page 1 of 11