3. Mascara

www.deftonesworld.com
DEFTONES - "Around the Fur"
--------------------------------------
Guitar - Mascara
================
Tune (low to high): c#/g#/c#/f#/a#/d#
Credits to: evilkrop@hotmail.com

Light-verse
|---------------------|
|---------------------|
|-----------------{5}-|
|-----------5---------|
|-5/8-7---4---7-4-----|
The note in {} is played only every 4th time.

Verse
|---------------------|
|---------------------|
|-----------------{5}-|
|-----------5---5-----|
|-5/8-7---4---7-4-----|
The note in {} is played only on the 2nd verse, on the 4th time.

Light-verse

Chorus
|---------------------------------|
|---------------------------------|
|---------------------------------|
|-8-8-8-8-8-8-8-8-4-4-4-2-4-4-2-4-|
|-8-8-8-8-8-8-8-8-4-4-4-2-4-4-2-4-|
|-8-8-8-8-8-8-8-8-4-4-4-2-4-4-2-4-|

Verse, Chorus

Breakdown
|---------------------------------|---------------------------------|
|---------------------------------|---------------------------------|
|---------------------------------|---------------------------------|
|-8-8-8-8-8-8-8-8-4-4-4-2-4-4-2-4-|-8-8-8-8-8-8-8-8--4--------------|
|-8-8-8-8-8-8-8-8-4-4-4-2-4-4-2-4-|-8-8-8-8-8-8-8-8--4--------------|
|-8-8-8-8-8-8-8-8-4-4-4-2-4-4-2-4-|-8-8-8-8-8-8-8-8--4--------------|

Outro
|---|------------|
|---|------------|
|-1-|-1----------|
|-1-|----1-------|
|-1-|-------1----|
|-2-|----------2-|
Page 1 of 11