13. The Boy’s Republic [limited editions only]

 

BAND:  Deftones
ALBUM: White Pony
SONG:  The Boys Republic

Intro

D|-----------------------------------|
A|-----------------------------------|
F|-----------------------------------|
C|--0-0-0---12-12-12---5-5-5-/-9-9-9-|
G|--0-0-0---12-12-12---5-5-5-/-9-9-9-|
C|--0-0-0---12-12-12---5-5-5-/-9-9-9-|

Verse

Rthym 1

...Blue star shine your light,down!...
D|------------------------------------|
A|------------------------------------|
F|------------------------------------|
C|----0-0-0----12-12-12----5-5-5------|
G|----0-0-0----12-12-12----5-5-5------|
C|----0-0-0----12-12-12----5-5-5------|

Rthym 1 (variation)
D|------------------------------------|
A|--------------------------7--7------|
F|--------------------------7--7------|
C|--0-0-0---12-12-12---5-5-5--5-------|
G|--0-0-0---12-12-12---5-5-5--5-------|
C|--0-0-0---12-12-12---5-5-5--5-------|

Rthym 3

...on everyone cause i don't care...
D|---------------------------------|
A|--5-5----5-5----5-5--------------|
F|--5-5----5-5----5-5--------------|
C|-3------3------3-----3-0-0-0-----|
G|-3------3------3-----3-0-0-0-----|
C|-3------3------3-----3-0-0-0-----|

Part A (during quiet part in song)

...it's more it's more down shine light...
D|-------------------------------------------|
A|-------------------------------------------|
F|-------------------------------------------|
C|-0--0----tap quickly------------tap quickly|
G|-0--0---12h13p12h13--13-----12h13p12h13--13|
C|-0--0--------------------------------------|

Part B
...shine your light...
D|-------------------------------------------|
A|-------------------------------------------|
F|-------------------------------------------|
C|-0--0----tap quickly--------tap quickly----|
G|-0--0----9h10p9h10--9--------9h10p9h10--9--|
C|-0--0--------------------------------------|

  Down!!!!!!!!!!!!!!!!!!!
D|---------------------------------|
A|---------------------------------|
F|---------------------------------|
C|--0-0-0-4--4-4---4--4-4----------|
G|--0-0-0--------------------------|
C|--0-0-0--------------------------|

  it's more....................
D|---------------------------------|
A|---------------------------------|
F|---------------------------------|
C|--0-0-0-7--7-7---7--7-7----------|
G|--0-0-0--------------------------|
C|--0-0-0--------------------------|

............................it's
D|---------------------------------|
A|---------------------------------|
F|---------------------------------|
C|--0-0-0-8--8-8---8--8-8----------|
G|--0-0-0--------------------------|
C|--0-0-0--------------------------|

....more.......................
D|---------------------------------|
A|---------------------------------|
F|---------------------------------|
C|--0-0-0-5--5-5---5--5-5----------|
G|--0-0-0--------------------------|
C|--0-0-0--------------------------|

......shine your light.............
D|---------------------------------|
A|---------------------------------|
F|---------------------------------|
C|--0-0-0-8--8-8---7-7--5----------|
G|--0-0-0--------------------------|
C|--0-0-0--------------------------|

Outro
D|---------------------------------|
A|---------------------------------|
F|------let notes ring-------------|
C|---------------------------------|
G|-----4-----7----8-----5----------|
C|---------------------------------|

			#########################
			# www.deftonesworld.com #            
			#########################
Page 1 of 11