12. Rivière

-------------------------------------------------------------------------------
  			         RIVIÈRE 
-------------------------------------------------------------------------------

Great song from Saturday Night Wrist!

Tuning: D A F C G C (Drop C)

-------------------------------------------------------------------------------
1. Verse
-------------------------------------------------------------------------------

Chords:
-------
    C    G(b13)/B     G/B
D|--5--| |--0--|    |-----|
A|--7--| |--2--|    |--5--|
F|--7--| |--2--| or |--6--|
C|--7--| |-(4)-|    |--7--|
G|--0--| |--4--|    |--4--|
C|--0--| |-----|    |-----|

Play them like this
D|-----------5--5-5-5-5--|-----0-0-0-0-0-0---|
A|-----------7--7-7-7-7--|-----2-2-2-2-2-2---|
F|-----7-7---7--7-7-7-7--|-----2-2-2-2-2-2---|
C|-----7-7---------------|-(4)---------------|
G|--0-(0-0)--------------|--4----------------|
C|--0--------------------|-------------------|

-------------------------------------------------------------------------------
2. Pre Chorus
-------------------------------------------------------------------------------

D|----------------------------------------------------|
A|----------------------------------------------------|
F|----------------------------------------------------|
C|---------4b5----------4----------4b5--------4-------|
G|------------------------5---------------------5-----|
C|--2--2--------2-2--2-------2--2--------2-2-------7--|

-------------------------------------------------------------------------------
3. Chorus
-------------------------------------------------------------------------------

The original version is with two guitars like this:

Guitar 1:
D|-(5)-(5)--5--|
A|--7---5---3--|
F|--7---6---2--|
C|--7---6---4--|
G|-------------|
C|-------------|

Guitar 2:
D|-------------|
A|--10--9---7--|
F|-------------|
C|--7---6---4--|
G|-------------|
C|-------------|

But I have mi own version of this for play it in one guitar like this:

D|--------5--|
A|--7--5--3--|
F|--7--6-----|
C|--7--6--4--|
G|--0--------|
C|--0--6--4--|

Obviously, play the chords with the rhythm of the song...

-------------------------------------------------------------------------------
4. Coda
-------------------------------------------------------------------------------

Version 1:             Version 2:
		       If you like, you can play the fifth too...
D|------------|        |------------|
A|------------|        |------------|
F|------------|        |------------|
C|--2-2--3-3--|        |--2-2--3-3--|
G|------------|        |--2-2--3-3--|
C|--2-2--3-3--|x 12    |--2-2--3-3--|x12

D|-----|
A|-----|
F|-----|
C|-(0)-|
G|--0--|
C|--0--|

-------------------------------------------------------------------------------
TABBED BY: Rats!Rats!Rats! 2007
-------------------------------------------------------------------------------
Page 1 of 11