11. Change (in the house of flies)

 

BAND:  Deftones
ALBUM: White Pony
SONG:  CHANGE (in the house of flies)

Tuning: Drop D then down a step

This song is played with two guitars but you can get away with playing it 
with just one. Might be a couple of errors here (this is my first tab) but 
is much more accurate than most of the crap I’ve seen floating around on the net. 

Intro & Verse 
D----------------------------------------------
A----------------------------------------------
F-------10-10-10-10----------------------------
C-------x-x-x-x-------7-7-7-8-8-8-7-7-7-8-8-7
G-------8-8-8--8-------5-5-5-5-5-5-5-5-5-5-5-5
C0-0-0-0-0-0-0-------5-5-5-5-5-5-5-5-5-5-5-5

Chorus

D-1-1-1-1-------------------
A-3-3-3-3-------------------
F-2-2-2-2-------------------
C-0-0-0-0----6-6-6-8-8-8-6-6-8-8-8-6
G-0-0-0-0----6-6-6-6-6-6-6-6-6-6-6-6
C-0-0-0-0----6-6-6-6-6-6-6-6-6-6-6-6

“It’s like you never”

D-3-3-3-3-3-3-3-3-3---1-1-1-1-1-1
A-6-6-6-6-6-6-6-6-6---3-3-3-3-3-3
F-5-5-5-5-5-5-5-5-5---2-2-2-2-2-2
C-3-3-3-3-3-3-3-3-3---0-0-0-0-0-0
G-3-3-3-3-3-3-3-3-3---0-0-0-0-0-0
C-3-3-3-3-3-3-3-3-3---0-0-0-0-0-0

“I look at the cross….”

D---------------------------------
A---------------------------------
F---------------------------------
C-7-7-7-8-8-8-7-7-7-----7-7-7-----
G------------------8-8-8-----8-8--
C-------------------------------0-

End

D-1-1-1-1-1--------------
A-3-3-3-3-3--------------
F-2-2-2-2-2--------------
C-0-0-0-0-0-7-8-7-8-8-8-7
G-0-0-0-0-0-5-5-5-5-5-5-5
C-0-0-0-0-0-5-5-5-5-5-5-5

Ajay Amin kappa_wearing_townie@hotmail.com

			###################################
			# http://www.deftonesworld.com    #          
			###################################
Page 1 of 11