1. Hexagram

© www.deftonesworld.com

"HEXAGRAM"

Tabbed by: Cross
6/10/03
Email:xcrossx1@yahoo.com
I finally decided to release my tabs to the public (check the bottom for the 
reason why I didn't in the first place).

Tuning:Here is Stephen's REAL tuning G#,C#,F#,B,E,G#,C#. Thats 4 1/2 steps down
from regular tuning and 2 1/2 steps down for 7 string. I play these on a regular
Guitar so I don't have the extra C# but it still sounds 99-100% correct.

Intro

C#|-0-0-0-0-0-0-0-0-----------0-0-0-0-0-0-0-0-0-0-0-0-0-0-0-0----------------|
G#|-0-0-0-0-0-0-0-0-----------0-0-0-0-0-0-0-0-0-0-0-0-0-0-0-0----------------|
E |-x-x-x-x-x-x-x-x-----------x-x-x-x-x-x-x-x-x-x-x-x-x-x-x-x----------------|
B |-2-2-2-2-2-2-2-2-----------6-6-6-6-6-6-6-6-6-6-6-6-6-6-6-6----------------|
F#|-2-2-2-2-2-2-2-2--4-4-4-4--6-6-6-6-6-6-6-6-6-6-6-6-6-6-6-6----------------|
C#|-0-0-0-0-0-0-0-0--4-4-4-4--4-4-4-4-4-4-4-4-4-4-4-4-4-4-4-4----------------|
G#|------------------2-2-2-2-------------------------------------------------|

C#|-0-0-0-0-0-0-0-0-----------0-0-0-0-0-0-0-0-0-0-0-0-0-0-0-0----------------|
G#|-0-0-0-0-0-0-0-0-----------0-0-0-0-0-0-0-0-0-0-0-0-0-0-0-0----------------|
E |-x-x-x-x-x-x-x-x-----------x-x-x-x-x-x-x-x-x-x-x-x-x-x-x-x----------------|
B |-2-2-2-2-2-2-2-2-----------6-6-6-6-6-6-6-6-6-6-6-6-6-6-6-6----------------|
F#|-2-2-2-2-2-2-2-2--4-4-4-4--6-6-6-6-0-0-0-0-0-0-0-0-0-0-0-0----------------|
C#|-0-0-0-0-0-0-0-0--4-4-4-4--4-4-4-4-0-0-0-0-0-0-0-0-0-0-0-0----------------|
G#|------------------2-2-2-2----------5-5-5-5-5-5-5-5-5-5-5-5----------------|

Verse 

C#|-0-0-0-0-0-0-0-0-----------0-0-0-0-0-0-0-0-0-0-0-0-0-0-0-0----------------|
G#|-0-0-0-0-0-0-0-0-----------0-0-0-0-0-0-0-0-0-0-0-0-0-0-0-0----------------|
E |-x-x-x-x-x-x-x-x-----------x-x-x-x-x-x-x-x-x-x-x-x-x-x-x-x----------------|
B |-2-2-2-2-2-2-2-2-----------6-6-6-6-6-6-6-6-6-6-6-6-6-6-6-6----------------|
F#|-2-2-2-2-2-2-2-2--4-4-4-4--6-6-6-6-6-6-6-6-6-6-6-6-6-6-6-6----------------|
C#|-0-0-0-0-0-0-0-0--4-4-4-4--4-4-4-4-4-4-4-4-4-4-4-4-4-4-4-4----------------|
G#|------------------2-2-2-2-------------------------------------------------|

                   before the Chorus Keep playing this part 
                                      |
C#|-0-0-0-0-0-0-0-0-----------0-0-0-0-0-0-0-0-0-0-0-0-0-0-0-0----------------|
G#|-0-0-0-0-0-0-0-0-----------0-0-0-0-0-0-0-0-0-0-0-0-0-0-0-0----------------|
E |-x-x-x-x-x-x-x-x-----------x-x-x-x-x-x-x-x-x-x-x-x-x-x-x-x----------------|
B |-2-2-2-2-2-2-2-2-----------6-6-6-6-6-6-6-6-6-6-6-6-6-6-6-6----------------|
F#|-2-2-2-2-2-2-2-2--4-4-4-4--6-6-6-6-0-0-0-0-0-0-0-0-0-0-0-0----------------|
C#|-0-0-0-0-0-0-0-0--4-4-4-4--4-4-4-4-0-0-0-0-0-0-0-0-0-0-0-0----------------|
G#|------------------2-2-2-2----------5-5-5-5-5-5-5-5-5-5-5-5----------------|

Chorus 1

C#|--------------------------------------------------------------------------|
G#|--------------------------------------------------------------------------|
E |--------------------------------------------------------------------------|
B |--------------------------------------------------------------------------|
F#|-5---4--5-4----4---4-4---4------------------------------------------------|
C#|-5---4--5-4----4---4-4---4------------------------------------------------|
G#|-3-0-2--3-2-0--2-0-2-2-0-2------------------------------------------------|

C#|--------------------------------------------------------------------------|
G#|--------------------------------------------------------------------------|
E |--------------------------------------------------------------------------|
B |--------------------------------------------------------------------------|
F#|10-10--9-9--5-5--7-7------------------------------------------------------|
C#|10-10--9-9--5-5--7-7------------------------------------------------------|
G#|-8--8--7-7--3-3--5-5------------------------------------------------------|

                  P.M......... on last two times.
C#|-----------------------------------0--------------------------------------|
G#|-----------------------------------0--------------------------------------|
E |-----------------------------------x--------------------------------------|
B |-------------------------------2-2-2--------------------------------------|
F#|-5---4--5-4----4---4-4---4-----2-2-2--------------------------------------|
C#|-5---4--5-4----4---4-4---4-----0-0-4--------------------------------------|
G#|-3-0-2--3-2-0--2-0-2-2-0-2------------------------------------------------|

Chorus 2

C#|--------------------------------------------------------------------------|
G#|--------------------------------------------------------------------------|
E |--------------------------------------------------------------------------|
B |--------------------------------------------------------------------------|
F#|10-10--9-9--5-5--7-7------------------------------------------------------|
C#|10-10--9-9--5-5--7-7------------------------------------------------------|
G#|-8--8--7-7--3-3--5-5------------------------------------------------------|

                  P.M......... on last two times.
C#|--------------------------------------------------------------------------|
G#|--------------------------------------------------------------------------|
E |--------------------------------------------------------------------------|
B |--------------------------------------------------------------------------|
F#|-5---4--5-4----4---4-4---4------------------10-10--9-9--5-5--7-7----------|
C#|-5---4--5-4----4---4-4---4--- x4 then play--10-10--9-9--5-5--7-7----------|
G#|-3-0-2--3-2-0--2-0-2-2-0-2-------------------8--8--7-7--3-3--5-5----------|

C#|--------------------------------------------------------------------------|
G#|--------------------------------------------------------------------------|
E |--------------------------------------------------------------------------|
B |--------------------------------------------------------------------------|
F#|-5---4--5-4----4---4-4---4------------------10-10--9-9--5-5--12-----------|
C#|-5---4--5-4----4---4-4---4--- then play-----10-10--9-9--5-5--12-----------|
G#|-3-0-2--3-2-0--2-0-2-2-0-2-------------------8--8--7-7--3-3--10-----------|

C#|--------------------------------------------------------------------------|
G#|--------------------------------------------------------------------------|
E |--------------------------------------------------------------------------|
B |--------------------------------------------------------------------------|
F#|-5---4--5-4----4---4-4---4------------------10-10--9-9--5-5--12-----------|
C#|-5---4--5-4----4---4-4---4--- then play-----10-10--9-9--5-5--12-----------|
G#|-3-0-2--3-2-0--2-0-2-2-0-2-------------------8--8--7-7--3-3--10-----------|

C#|--------------------------------------------------------------------------|
G#|--------------------------------------------------------------------------|
E |--------------------------------------------------------------------------|
B |--------------------------------------------------------------------------|
F#|-5---4--5-4----4---4-4---4------------------10-10--9-9--5-5--12-----------|
C#|-5---4--5-4----4---4-4---4--- then play-----10-10--9-9--5-5--12-----------|
G#|-3-0-2--3-2-0--2-0-2-2-0-2-------------------8--8--7-7--3-3--10-----------|

                  P.M......... on last two times.
C#|-----------------------------------0--------------------------------------|
G#|-----------------------------------0--------------------------------------|
E |-----------------------------------x--------------------------------------|
B |-------------------------------2-2-2--------------------------------------|
F#|-5---4--5-4----4---4-4---4-----2-2-2--------------------------------------|
C#|-5---4--5-4----4---4-4---4-----0-0-4--------------------------------------|
G#|-3-0-2--3-2-0--2-0-2-2-0-2------------------------------------------------|

Outro
C#|-----0--------------------------------------------------------------------|
G#|-----0--------------------------------------------------------------------|
E |-----x--------------------------------------------------------------------|
B |-2-2-2--------------------------------------------------------------------|
F#|-2-2-2--------------------------------------------------------------------|
C#|-0-0-4--------------------------------------------------------------------|
G#|--------------------------------------------------------------------------|

Song Structure:

Intro
Verse 
Chorus 1
Verse
Chorus 2
Verse
Intro
Verse x2
Outro

P.S. I would like to send out a BIG Fuck You to all you faggots that stole 
credit for my old tabs. 
Fuck You: 
Cenif (this guy deserves a MEGA FUCK YOU) cenif@hotmail.com 
Miguel Garzón knick_knack_666@hotmail.com
SAM ROWLANDS dead_evil4@hotmail.com  You NUTT BITING FAGGOTS
There were more but I guess reporting they're asses got them taken off before
I could get there info, Thieving biatchez.

| /  slide up
| \  slide down
| h  hammer-on
| p  pull-off
| ~  vibrato
| +  harmonic
| x  Mute note

===============================================================================

 from Youngy in South Wales.

Deftones 
hexagram
Tuning: BEADFB    
(u can slighty mess with the tuning a bit to make it sound perfect)

This tab is practically correct i think its the closest your gonna get to the orig
by using a six string (and not massivly detune'in it). 
you can play this along with the cd and it sounds right.
U can do the strum pattern ur self  Enjoy.

intro
(clearish)

B------------------
F-2--------2-------
D----------3-------
A-4---1---3-------
E-4----1---1-------
B-2-----------------

B------------2----
F-2----------2----
D--------3---4----
A-4--1--3---4----
E-4---1--1---2----
B-2---------------

Verse same as intro
(distorted)

B-2-------------
F-2-----2-------
D-------3-------  x3
A-4--1--3-------
E-4--1--1-------
B-2-------------

B------------2-22-
F-2----------2-22-
D--------3---4-44-
A-4--1--3---4-44-
E-4--1---1---2-22-
B-2---------------

Chorus (worship...play play)
listening to the cd will help u with the timing

B------------------
F------------------
D------------------
A------------------
E--6-4-6--66-4-6---
B--6-4-6--66-4-6---

B------------------
F------------------
D-2-1-4------------
A-2-1-4-2----------
E---------2----------
B------------------

B------------------
F------------------
D------------------
A------------------
E--6-4-6--66-4-6---
B--6-4-6--66-4-6---

B------------------
F------------------
D-2-1-4------------
A-2-1-4-2----------
E---------2----------
B------------------

B----------------------------------------------------
F--------------------------------------2-----2~------
D--------------------------------------------3~------
A---------------------------------4---4-----3~------
E--6-4-6--66-4-6---66---------4---4-----1~------
B--6-4-6--66-4-6---66---------2---2-------------

tAbBED bY yOuNgY 2003
Page 1 of 11