1. Bored

Guitar - Bored
==============
Tune (low to high): e/a/d/g/b/e
Credits to: c0z420 (coz200059@hotmail.com)

Intro
|---------------------|
|---------------------|
|---------------------|
|-888-7-8\7-----------|
|-666-5-6\5-----------|
|-666-5-6\5-----------|
  <<<<pm>>>>

Chorus
|--------------------------|
|--------------------------|
|---------8--8-8--7--7-7-7-|
|--5-5-5--8--8-8--7--7-7-7-|
|--5-5-5--6--6-6--5--5-5-5-|
|--3-3-3-------------------|

Verse
Same as intro, with louder distortion.

Chorus

Fill
|---------------------|
|---------------------|
|---------------------|
|-888-7-8-7-----------|
|-666-5-6-5-----------|
|-666-5-6-------------|
 <<<pm>>>

Verse, Chorus

Bridge
|-----------------|-------------------------0--|
|-----------------|-------------------------0--|
|-----------------|-------------*4*4*4*4*4--4--|
|-5555--55-55--55-|-5555--55-55-*5*5*5*5*5--5--|
|-5555--55-55--55-|-5555--55-55----------------|
|-3333--33-33--33-|-3333--33-33----------------|

Chorus
Page 1 of 11